Sanatçılar:

Zeki Muren - Eller Ne Derse Desinadd

Akorlar
BmAmCD
E|---------------------------------------------------------------
B|---------------------------------------------------------------
G|----------5-7-8-7-5-----7/8--7h-------7-5----------------------
D|-------------------------------------------7-8--------8-7------
A|---------------------------------------------------------------
E|---------------------------------------------------------------

E|--------------------------------------------------------------------------------
B|--------------------------------------------------------------------------------
G|----------5-8-7-5------3-5-7--5--7---8-8--7-8---8---7--5------------------------
D|--------------------------------------------------------------------------8-7---
A|--------------------------------------------------------------------------------
E|--------------------------------------------------------------------------------

Bm           Am   Bm
Eller ne derse desin,
Bm     Am         Bm
İnan ilk sevgilimsin.
C          Am
Bekliyorum yillardir
D        Bm
Ne zaman geleceksin?

Bm       Am       Bm
Ruhumsun askimsin sen,
Bm       Am       Bm
Heryerde senin sesin.
C          Am
Bekliyorum yillardir,
D        Bm
Ne zaman geleceksin?

Bm       Am    Bm
Unutamam buseni,
Bm           Am     Bm
Sevgilim sen nerdesin?
C          Am
Bekliyorum yillardir,
D         Bm
Ne zaman geleceksin?

Bu içerik kullanıcılar tarafından müzik eğitimi amacı ile paylaşılmıştır. Telif ihlali içerdiğini düşünüyorsanız bizimle iletişime geçebilirsiniz.

Hatalı İçerik Bildir

Bir cevap yazın Cevabı iptal et