A A

Within Temptation - Mother Earth


d: penanın aşağı vuruşuyla çalınacağını belirtir
u: penanın yukarıya vuruşuyla çalınacağını belirtir

Intro:

      C#m(5)          A(5)     E(5)       C#m             A(5)     F#(5)
E||--9----11-12---11-12-11-9----------|--9----11-12---11-12-11-9--16---14--|(flüt)
B||---------------------------12---12-|---------------------------9----7---|
G||--6----8--9----8--9--8--6----------|--6----8--9----8--9--8--6-----------|(keman)
D||---------------------------9----9--|------------------------------------|
A||-----------------------------------|------------------------------------|
E||-----------------------------------|------------------------------------|

      C#m(5)          A(5)      E(5)      C#m(5)          A(5)     F#(5)
E||-----------------------------------|------------------------------------|
B||-----------------------------------|------------------------------------|
G||--------6--------------------------|--------6---------------------------|Piyano
D||-----6---------------2----------2--|-----6----------------2---------4---|
A||--4---------------0----------2-----|--4----------------0----------4-----|
E||--------------------------0--------|---------------------------2--------|

      C#m(5)          A(5)           E(5)       F#(5)    G#(5)      C#m(5)
E||--9----11-12---11-12-14p12p11------------|--14-12-11-12-11-------------|(flüt)
B||---------------------------------12---12-|--7--------------14----------|
G||--6----8--9----8--9--8--6----------------|-----9--8--9--8--6-----------|(keman)
D||---------------------------------9----9--|-----------------------------|
A||-----------------------------------------|-----------------------------|
E||-----------------------------------------|-----------------------------|

       C#m(5)          A(5)           E(5)       F#(5)    G#(5)      C#m(5)
E||-----------------------------------------|-----------------------------|
B||-----------------------------------------|-----------------------------|
G||--------6--------------------------------|-----------------------------|Piyano
D||-----6---------------2-----------------2-|--------4--------6-----------|
A||--4---------------0-----------------2----|-----4--------6-------4--4---|
E||---------------------------------0-------|--2--------4-----------------|

(Riff A)

     C#5                              E5            C#5
E||---------------------------------------------|-------------------------------------
B||---------------------------------------------|-------------------------------------
G||---------------------------------------------|-------------------------------------
D||--6----------6----------6--------------------|--6----------6----------6------------
A||--4--4-4-4-4-4--4-4-4-4-4--4-4-4-4-2-2--2--2-|--4--4-4-4-4-4--4-4-4-4-4--4--4-7-6-
E||-----------------------------------0-0--0--0-|-----------------------------------7-
     d  d u d u d  d u d u d  d u d u d d  d  d

 C#5                              E5           F#      E       D#      G#
E||---------------------------------------------|-----------------------------------|
B||---------------------------------------------|-----------------------------------|
G||---------------------------------------------|--------------------------1----1---|
D||--6----------6----------6--------------------|--4----4--2----2--1----1--1----1---|
A||--4--4-4-4-4-4--4-4-4-4-4--4-4-4-4-2-2--2--2-|--4----4--2----2--1----1-----------|
E||-----------------------------------0-0--0--0-|-----------------------------------|

  (A)           (A/C#)           (A/E)         (Amaj7)
E||------------------------------|-------------------------------|
B||------------------------------|-------------------------------|
G||------------------------------|----------------1----1--1--1---|
D||------------------------------|--2----2--2--2-----------------|
A||--0----0--0--0--4----4--4--4--|-------------------------------|
E||------------------------------|-------------------------------|

[Tekrar intro 1x]

(Riff B)

     C#5                                           A5                    E5         B5
                Birds and  butterfli--ies                 Ri- vers   and mountains  she   cre-
E||---------------------------------------------|-------------------------------------
B||---------------------------------------------|-------------------------------------
G||---------------------------------------------|-------------------------------------
D||--6----------6----------6----------6------6--|--2----------2------2--------------4--4--4--|
A||--4--4-4-4-4-4--4-4-4-4-4--4-4-4-4-4--4-4-4--|--0--0-0-0-0-0--0-0-0---2----------2--2--2--|
E||---------------------------------------------|------------------------0--0-0-0-0---

  C#5                                          D#m5                        G# 5
  ates       But you'll    never know                 The next move    she'll make
E||-------------------------------------------|---------------------------------------
B||-------------------------------------------|---------------------------------------
G||-------------------------------------------|---------------------------------------
D||-6----------6---------------------------6--|--4----4------4----4----6----6--6----6-
A||-4--4-4-4-4-4--4-4-4-4-6--6-6-7--7-7-6--4--|--6----6------6----6----3----3--3----3-
E||-------------------------------------------|---------------------------------------
    d  d u d u d  d u d u d  d u d  d u d  d

[ 2.kısım Riff B ile birlikte ]:

C#5
   You can try
A5           E5      B5     C#5
   But it is useless to ask why

   Cannot control her
D#m5            G#5
   She goes her own way

[Nakarat](Riff C)

     C#5           G#5              B5            F#5
              She  ruuuuuuuuuuuuuuuuuuuuuuuuuuuuuuuuuuuuuuules
E||------------------------------|------------------------------|
B||------------------------------|------------------------------|
G||------------------------------|------------------------------|
D||-----------6------------------|-----------4------------------|
A||--4--4--4--4-------------6----|--2--2--2--2-------------4----|
E||----------------4--4--4--4----|----------------2--2--2--2----|

  F#5         C#5         C#5     D#5           G#
       until the end of time   She   gives and she takes  |1|
E||-----------------------|-------------------------------|-|
B||-----------------------|-------------------------------|-|İlk bitiş
G||-----------------------|-------------------------------|-|
D||-----------------------|------------------------6------|-|
A||--4-----------4--------|--4--4-4--6--6-6--------6------|-|
E||--2-----------4--------|--4--4-4--6--6-6--------4------|-|

  F#5         C#5         G#5                 C#5
       until the end of time    She goes her own way  |2|
E||-----------------------|---------------------------|-|
B||-----------------------|---------------------------|-|İkinci bitiş
G||-----------------------|---------------------------|-|
D||-----------------------|---------5------------6----|-|
A||--4-----------4--------|--6------3------------4----|-|
E||--2-----------4--------|--4------------------------|-|

  F#5         C#5         C#5    F#5          C#5
       until the end of time    She goes her own way  |3|
E||-----------------------|---------------------------|-|
B||-----------------------|---------------------------|-|Üçüncü bitiş (ikinci nak.)
G||-----------------------|---------------------------|-|
D||-----------------------|---------4--4-4-------6----|-|
A||--4-----------4--------|--4--4-4-4--4-4-------4----|-|
E||--2-----------4--------|--4--4-4-------------------|-|

[ 3. kısım Riff B ile birlikte ]

C#5
   With every breath
A5             E5      B5      C#5
   And all the choices that we make
               D#m5               G#5
   We are only passing through on her way
C#5
   I find my strength
A5           E5        B5         C#5
   Believing that your soul lives on

   Until the end of time
D#m5             G#5
   I'll carry it with me

[İkinci nakarat Riff C ile birlikte (üçüncü bitişle)]

Intro x1

B#dim         C#m
Once you will know my dear
C#                F#m/C#
You don't have to fear

D       C#sus4  B#dim                C#sus4 C#
A new beginning always starts at the end
C#            F#sus4  F#m
Once you will know my dear
F#7               Bm
You don't have to fear

F#m/C#       C#m
  Until the end of time
F#m/C#       C#m
  Until the end of time
F#m/C#       C#m
  Until the end of time
B#dim              C#m
  She goes her own way

[Riff A] x2

[Nakarat]

     C#5           G#5              B5            F#5
              She  ruuuuuuuuuuuuuuuuuuuuuuuuuuuuuuuuuuuuuuules
E||------------------------------|------------------------------|
B||------------------------------|------------------------------|
G||------------------------------|------------------------------|
D||-----------6------------------|-----------4------------------|
A||--4--4--4--4-------------6----|--2--2--2--2-------------4----|
E||----------------4--4--4--4----|----------------2--2--2--2----|

  F#5         C#5         C#5     D#5           G#
       until the end of time   She   gives and she takes  |1|
E||-----------------------|-------------------------------|-|
B||-----------------------|-------------------------------|-|İlk bitiş
G||-----------------------|-------------------------------|-|
D||-----------------------|------------------------6------|-|
A||--4-----------4--------|--4--4-4--6--6-6--------6------|-|
E||--2-----------4--------|--4--4-4--6--6-6--------4------|-|

[İkinci bitiş]

  C#5
         un  til  the   end    of  time
E||------------------------------------------------|
B||------------------------------------------------|
G||------------------------------------------------| x3kere
D||------------------------------------------------|
A||--4----------4----------4----------7--6---------|
E||--4--4-4-4-4-4--4-4-4-4-4--4-4-4-4-------7------|

A5    G#5          C#m
  She goes her own way

   C#5
E||---------------------------------------------------|---|
B||---------------------------------------------------|---|
G||---------------------------------------------------|---|
D||--6-----------6-----------6------------------------|-6-|
A||--4-4---4---4-4-4---4---4-4-4---4---4-7--6---------|-4-|
E||--------------------------------------------7------|---|
     d u   u   u d u   u   u d u   u   u d  d  d
Bilgiler

Eser:
Mother Earth

Biçim:
Tab

Tarih:
13.01.2015

Gönderen:

Hit:
115

Bir Yorum Yazın