A A

Pearl Jam - Sometimes


INTRO:
Guitar 1:
E|---------------------------------|
B|---------------------------------|
G|-----5-----5---5-----5-------5---|
D|-0-0---0-0---0---6-6---6-7-7---7-|
A|---------------------------------|
E|---------------------------------|

Guitar 2:     Add this the first few times at the end of guitar 1 riff
E|---------|  E|-17-|----17-|----17-|----17----|-
B|-5-5-6-7-|  B|-17-|-17----|-17----|-17----17-|-
G|---------|  G|----|-------|-------|----------|-
D|---------|  D|----|-------|-------|----------|-(etc)
A|---------|  A|----|-------|-------|----------|-
E|---------|  E|----|-------|-------|----------|-

bass:
G-|----------------|-
D-|-------6--/7----|-
A-|---5------------|-
E-|----------------|-

PRE CHORUS:
E|-------------------------------|-
B|-------------------------------|-
G|-------------------------------|-
D|-------------------------------|-
A|-----3-----3---3-----3-------3-|-
E|-1-1---1-1---1---0-0---0-1-1---|-

CHORUS:
D-|-----------------|-----------------|-----------------|-
A-|-----------------|-----------------|-----------------|-
E-|-6-6-6-6-6-6-6-6-|-7-7-7-7-7-7-7-7-|-8-8-8-8-8-8-8-8-|-
    the many on the   shelf      some  times I know  some

D-|-----------------|-----------------|-----------------|-
A-|-----------------|-----------------|-----------------|-
E-|-5-5-5-5-5-5-5-5-|-6-6-6-6-6-6-6-6-|-7-7-7-7-7-7-7-7-|-
   times I rise some times I fall some times I don't some

D-|-----------------|-----------------|-------------------|-
A-|-----------------|-----------------|-------------------|-
E-|-8-8-8-8-8-8-8-8-|-6-6-6-6-6-6-6-6-|-7-7-7-7-7-7-7-7-7-|-
  times I cringe some times I live some times I walk some

D-|-----------------|-----------------|-------------------|-
A-|-----------------|-----------------|-------------------|-
E-|-8-8-8-8-8-8-8-8-|-6-6-6-6-6-6-6-6-|-7-7-7-7-7-7-7-7-7-|-
   times I kneel some times  I  speak  of  nothing at all

   sometimes I reach to myself   dear God

RIFF PLAYED UNDER CHORUS:
E-|-17----17----17----17----17----17----|-
B-|----18----18----18----18----18----18-|-
G-|-------------------------------------|-
D-|-------------------------------------|-(etc)
A-|-------------------------------------|-
E-|-------------------------------------|-

OUTRO:
Guitar 1:
E-|--------------------|-
B-|--------------------|-
G-|--------------------|-
D-|-----3------3-----3-|-(repeat many times)
A-|--------------------|-
E-|-1-1----1-1-----1---|-

Guitar 2:
E|-13--15-12------13--15-12-----|-
B|-------------15---------------|-
G|------------------------------|-
D|------------------------------|-
A|------------------------------|-
E|------------------------------|-

bass:
G-|--------------|-
D-|--------------|-
A-|12\8---10--7--|-
E-|--------------|-
Bilgiler
Sanatçı:
Pearl Jam

Eser:
Sometimes

Biçim:
Tab

Tarih:
10.12.2014

Gönderen:

Hit:
191

Bir Yorum Yazın