A A

Pearl Jam - Faithful


(Jeff's original file follows)

E---3----3--3-----3--3----3--3-----6---
B---1----1-----1-----1----1-----1--4---
G--------------------------------------
D--------------------------------------
A--------------------------------------
E--------------------------------------

E---5----5--5-----5--5----5--5-----7---
B---3----3-----3-----3----3-----3--5---
G--------------------------------------
D--------------------------------------
A--------------------------------------
E--------------------------------------

E---3----3--3-----3--3----3--3-----6---
B---1----1-----1-----1----1-----1--4---
G--------------------------------------
D--------------------------------------
A--------------------------------------
E--------------------------------------

E---5----5--5-----5--7----5--5-----7---
B---3----3-----3--3--3----3-----3--5---
G--------------------------------------
D--------------------------------------
A--------------------------------------
E--------------------------------------

==================================================

"Faithful" by Pearl Jam
>From the album Yield

Tabulature by Jeff Westcott
Send comments/corrections to westcott3@prodify.net

Standard Tuning

Legend

^ = bend
h = hammer
p = pull off
/ = slide

E---3--3--3--3--3--3--3--3--3--6--5--5--5--5--5--5--5--5--5--7--
B---1--1--1--1--1--1--1--1--1--4--3--3--3--3--3--3--3--3--3--5--
G---------------------------------------------------------------
D---------------------------------------------------------------
A---------------------------------------------------------------
E---------------------------------------------------------------

E---3--3--3--3--3--3--3--3--3--6--5--5--5--5--7--5--5--5--5-------------
B---1--1--1--1--1--1--1--1--1--4--3--3--3--3--3--3--3--3--3--3-h5p-0----
G-----------------------------------------------------------------------
D-----------------------------------------------------------------------
A-----------------------------------------------------------------------
E------------------------------------------repeat without the hammer/pull of

"Plaque on the wall says that.....no ones slept here...it's rare"

E---3--3--3--3--3--3--3--3--3--6--5--5--5--5--7--5--5--5--5--7--
B---1--1--1--1--1--1--1--1--1--4--3--3--3--3--3--3--3--3--3--3--
G--------------------------------------------------------------- repeat
D---------------------------------------------------------------   x4
A---------------------------------------------------------------
E---------------------------------------------------------------

Add Distortion Here:

                 "An echo nobody hears....it goes it goes it goes.."

E-------------------------------------------------------
B-------------------------------------------------------
G-------------------------------------------------------
D---10---8--7--8--8--8--8--7--10---8--7--8--8--8--8--7--
A---10^--8--7--8--8--8--8--7--10^--8--7--8--8--8--8--7--
E--------6--5--6--6--6--6--5-------6--5--6--6--6--6--5--

"We're faithful...             we all believe...we all believe it..."

E------3--3-----3--3--------------------3--3--3--3--3--
B------3--3-----3--3--------------------3--3--3--3--3--
G---5--4--4--5--4--4/12--5--5--5--5--5--4--4--4--4--4--  repeat
D---5--5--5--5--5--5-----5--5--5--5--5--5--5--5--5--5--    x4
A---3--5--5--3--5--5-----3--3--3--3--3--5--5--5--5--5--
E------3--3-----3--3--------------------3--3--3--3--3--

This is the fast part:

E---------------------------------------------------------
B-------------------------12--12--10--12--12--12--10--12--
G-------------------------12--12--10--12--12--12--10--12--
D---8-------10--------10--12--12--10--12--12--12--10--12--
A---8-------10^-------10--10--10--10--10--10--10--10--10--
E---6--(0)-------(0)--------------------------------------

E--------------------------------------------
B-----------------------------12--12--10--12-
G-----------------------------12--12--10--12-
D------------13-----------15--12--12--10--12-
A------------13-----------15--10--10--10--10-
E---6h8p6p0--11--6h8p6p0--13-----------------

E--------------------------------------------
B----------------------------12--12--10--12--
G----------------------------12--12--10--12--
D-----------8------------10--12--12--10--12--
A-----------8------------10--10--10--10--10--
E--6h8p6p0--6--6h8p6p0-----------------------

E---------------------------------------------
B-----------------------------12--12--10--12--
G-----------------------------12--12--10--12--
D------------13-----------15--12--12--10--12--
A------------13-----------15--10--10--10--10--
E---6h8p6p0--11--6h8p6p0--13------------------

E-----------------------------|----------------------------
B-----------------------------|----------------------------
G-----------------------------|----------------------------
D---10---8--7--8--8--8--8--7--|--10---8--7--8--8--8--8--7--
A---10^--8--7--8--8--8--8--7--|--10^--8--7--8--8--8--8--7--
E--------6--5--6--6--6--6--5--|-------6--5--6--6--6--6--5--

               An echo..........nobody hears it goes it goes it goes.."

E------3--3-----3--3-----------------3--3--3--3--3--
B------3--3-----3--3-----------------3--3--3--3--3--
G---5--4--4--5--4--4--5--5--5--5--5--4--4--4--4--4--
D---5--5--5--5--5--5--5--5--5--5--5--5--5--5--5--5--
A---3--5--5--3--5--5--3--3--3--3--3--5--5--5--5--5--
E------3--3-----3--3-----------------3--3--3--3--3--

"We're faithful...             we all believe...we all believe it..."

Then back to the beginning.  Except it ends like this:

E---3--3--3--3--3--3--3--3--3--6-----
B---1--1--1--1--1--1--1--1--1--4--3--
G---------------------------------0--
D------------------------------------
A------------------------------------
E------------------------------------
Faithfull

Plaque on the wall says that no one's slept here
It's rare to come upon a bridge that has not been around or been stepped on
Whatever the notions we laced in our prayers
The man upstairs is used to all of this noise
I'm through with screaming
An echo nobody hears, it goes, it goes, it goes
Like echoes nobody hears, it goes, it goes, it goes like this

We're faithful, we all believe, we all believe it (x4)

An echo nobody hears, it goes, it goes, it goes
An echo nobody hears, it goes, it goes, it goes like this

We're faithful, we all believe, we all believe it (x4)

M.Y.T.H is belief in the game. Controls.
That keeps us in a box of fear
We never listen, voice inside so drowned out, drowned you are
You are, you are a furry thing and everything is you
Me you, you me, it's all related what's a boy to do?
Just be darling and I will be too
faithful to you.
Bilgiler
Sanatçı:
Pearl Jam

Eser:
Faithful

Biçim:
Tab

Tarih:
10.12.2014

Gönderen:

Hit:
117

Bir Yorum Yazın