Sanatçılar:

Müzeyyen Senar - Duydum Ki Unutmuşsunadd

Akorlar
DmCGm
E|------|------|------|------|------|------|------|------|------|------|------|
B|------|------|------|------|------|------|------|------|------|----3-|1-----|
G|2-3-2-|0-----|------|------|------|------|------|------|2-3-0-|2-3---|------|
D|------|--3-2-|0-----|------|2-3-2-|0-----|------|------|------|------|------|
A|------|------|------|------|------|--3-1-|0-----|------|------|------|------|

E|------|------|------|------|------|------|------|------|------|------|------|
B|------|----1-|------|------|------|------|------|------|------|------|------|
G|------|2-3---|3-2-0-|2-----|------|2-3-2-|0-----|------|------|------|------|
D|------|------|------|------|------|------|--3-2-|0-----|3-----|2-3-2-|0---0-|
A|------|------|------|------|------|------|------|------|------|------|--3---|

E|------|------|------|------|------|------|------|------|------|------|
B|------|------|------|------|------|------|------|------|------|------|
G|------|------|------|------|------|------|------|------|------|------|
D|------|------|0-1-0-|------|------|3-----|2-0---|------|------|------|
A|3-----|------|------|3-1-3-|0-----|------|----3-|1-0-1-|0-----|------|(fin)

E|------|------|------|------|------|------|------|------|
B|------|------|------|------|------|------|------|------|
G|------|------|------|------|------|------|------|------|
D|3--33-|3-2-3-|2-----|------|2-3-2-|0---0-|------|------|
A|------|------|------|3-1-0-|------|--3---|3-----|------|

E|------|------|------|------|------|------|------|------|
B|------|------|------|------|------|------|------|------|
G|------|------|------|------|------|------|------|------|
D|------|------|0-----|3-----|2-0---|------|------|------|
A|1--11-|1-0---|------|------|----3-|1-0-1-|0-----|------|
E|------|----3-|------|------|------|------|------|------|

Dm
Duydum ki unutmussun, gözlerimin rengini
                 C    Dm
Duydum ki unutmussun, gözlerimin rengini
                                       C
Yazik olmus o gözlerden sana akan yaslara
                 Dm     C              Dm
Yazik olmus o gözlerden sana akan yaslara
Dm                 C  Dm            C
Bir zamanlar sevginle ateslenen basimi
Gm             Dm C      Gm       Dm
Dizlerinin yerine dayasaydim taslara

Dm
Hani bendim yedi renk, hani tende can idim
                C    Dm
Hani gündüz hayalin, geceler rüyan idim
Dm              C   Dm               C
Demek ki senin için ask degil yalan idim
Gm            Dm  C      Gm       Dm
Acirim heder olan o en güzel yillara

Bu içerik kullanıcılar tarafından müzik eğitimi amacı ile paylaşılmıştır. Telif ihlali içerdiğini düşünüyorsanız bizimle iletişime geçebilirsiniz.

Hatalı İçerik Bildir

Bir cevap yazın Cevabı iptal et