A A

Loituma - Levan Polka


e|---0-0-2-3-0-0--0-3-2-----2-3-0-0-|---0-0-2-3-0-0--0-3-2-----2-3-0-0-|
B|-0--------------------3-3---------|-0--------------------3-3---------|
G|----------------------------------|----------------------------------|
D|----------------------------------|----------------------------------|
A|----------------------------------|----------------------------------|
E|----------------------------------|----------------------------------|

e|-7-7-7-5-3-2-------2-5-5-5-3-2-3-0-0-0-|-7-7-7-5-3-2-------2-5-5-5-3-2-3-0-0-0-0-3-|
B|------------3-3-3-3--------------------|------------3-3-3-3------------------------|
G|---------------------------------------|-------------------------------------------|
D|---------------------------------------|-------------------------------------------|
A|---------------------------------------|-------------------------------------------|
E|---------------------------------------|-------------------------------------------|

2.
e|---0-0-2-3-0-0--0-3-2-----2-3-0-0-|---0-0-2-3-0-0--0-3-2-----2-3-0-0-|
B|-0--------------------3-3---------|-0--------------------3-3---------|
G|----------------------------------|----------------------------------|
D|----------------------------------|----------------------------------|
A|----------------------------------|----------------------------------|
E|----------------------------------|----------------------------------|

E|-7-7-5-5-3-----2--5-5-2-2-3-0-0-0-|-7-7-5-5-3-----2--5-5-2-2-3-0-0--------------|
B|-----------3-3--------------------|-----------3-3-------------------------------|
G|----------------------------------|---------------------------------------------|
D|----------------------------------|---------------------------------------------|
A|----------------------------------|---------------------------------------------|
E|----------------------------------|---------------------------------------------|

3.
e|---0-0-2-3-0-0--0-3-2-----2-3-0-0-|---0-0-2-3-0-0--0-3-7-7-7-5-3-0-|
B|-0--------------------3-3---------|-0------------------------------|
G|----------------------------------|--------------------------------|
D|----------------------------------|--------------------------------|
A|----------------------------------|--------------------------------|
E|----------------------------------|--------------------------------|

e|-7-7-7-5-3-2-------2-5-5-5-3-2-3-0-0-3-|-7-7-7-5-3-2-------2-5-5-5-3-2-3-0-0-0-0-3-|
B|------------3-3-3-3--------------------|------------3-3-3-3------------------------|
G|---------------------------------------|-------------------------------------------|
D|---------------------------------------|-------------------------------------------|
A|---------------------------------------|-------------------------------------------|
E|---------------------------------------|-------------------------------------------|
Bilgiler
Sanatçı:
Loituma

Eser:
Levan Polka

Biçim:
Tab

Tarih:
03.12.2014

Gönderen:

Hit:
226

Bir Yorum Yazın