A A

Loituma - İevan Polka


|-------0-1-----1-0-----0-1--------------0-1-----1-3-3-1-0-1-----|
|---3-3-----3-3-----1-1-----3-3------3-3-----3-3-------------3-3-|
|-2--------------------------------2-----------------------------|
|----------------------------------------------------------------|
|----------------------------------------------------------------|
|----------------------------------------------------------------|

|--5-5-3-1-0-----0-3-3-1-0-1------1h5-5-3-1-0-----0-3-3-1-0-1-----|
|------------1-1-------------3-3--------------1-1-------------3-3-|
|-----------------------------------------------------------------|
|-----------------------------------------------------------------|
|-----------------------------------------------------------------|
|-----------------------------------------------------------------|
Bilgiler
Sanatçı:
Loituma

Eser:
İevan Polka

Biçim:
Tab

Tarih:
03.12.2014

Gönderen:

Hit:
234

Bir Yorum Yazın