Lacuna Coil - Circle

Ritm Gitar

E||--------------------|-------------------|-------------------|
B||--------------------|-------------------|-------------------|
G||*--2----------------|-------------------|-------------------|
D||*--2----------------|--3----------------|--2----------------|
A||---0----------------|--3----------------|--2----------------|
E||--------------------|--1----------------|--0----------------|

--------------------||-------------------||--------------------|
--------------------||-------------------||--------------------|
-------------------*||-------------------||*--2----------------|
--5----------------*||--5----------------||*--2----------------|
--5-----------------||--5----------------||---0----------------|
--3-----------------||--3----------------||--------------------|

-------------------|-------------------|--------------------||
-------------------|-------------------|--------------------||
-------------------|-------------------|-------------------*||
--3----------------|--2----------------|--5----------------*||
--3----------------|--2----------------|--5-----------------||
--1----------------|--0----------------|--3-----------------||

---------------------------|--------------------------|
---------------------------|--------------------------|
*--2--------2--------2-----|--------------------------|
*--2--------2--------2-----|--3--------3--------3-----|
---0--0--0--0--0--0--0--0--|--3--------3--------3-----|
---------------------------|--1--1--1--1--1--1--1--1--|

--------------------------|---------------------------||--------------------
--------------------------|---------------------------||--------------------
--------------------------|--------------------------*||*--5----------------
--2--------2--------2-----|--5--------5--------5-----*||*--5----------------
--2--------2--------2-----|--5--------5--------5------||---3------------5---
--0--0--0--0--0--0--0--0--|--3--3--3--3--3--3--3--3---||----------------3--

----------------|--------------------|-----------------||----------------|
----------------|--------------------|-----------------||----------------|
----------------|--------------------|----------------*||----------------|
----------------|--3-----------------|----------------*||----------------|
--6------8------|--3------------5----|--6------8-------||--6------8------|
--4------6------|--1------------3----|--4------6-------||--4------6------|

|----------------------------|-----------------------------|
|----------------------------|-----------------------------|
|*--7----7---7-7-7-----------|--3--3--3--3-3-3-3-----------|
|*--7----7---7-7-7-7--7--7-7-|--3--3--3--3-3-3-3-5--5--5-5-|
|---5----5---5-5-5-7--7--7-7-|--1--1--1--1-1-1-1-5--5--5-5-|
|------------------5--5--5-5-|-------------------3--3--3-3-|

---------------------------|-------------------------------||
---------------------------|-------------------------------||
--7----7---7-7-7-----------|--2/3-3--3--3-3-3/5-5--5--5-5-*||
--7----7---7-7-7-7--7--7-7-|--2/3-3--3--3-3-3/5-5--5--5-5-*||
--5----5---5-5-5-7--7--7-7-|--0/1-1--1--1-1-1/3-3--3--3-3--||
-----------------5--5--5-5-|-------------------------------||

-------------------|-------------------|-------------------|----------------
-------------------|-------------------|-------------------|----------------
--2----------------|-------------------|-------------------|----------------
--2----------------|--3----------------|--2----------------|--5-------------
--0----------------|--3----------------|--2----------------|--5-------------
-------------------|--1----------------|--0----------------|--3-------------

|--------------------|-------------------|-------------------|
|--------------------|-------------------|-------------------|
|*--2----------------|-------------------|-------------------|
|*--2----------------|--3----------------|--2----------------|
|---0----------------|--3----------------|--2----------------|
|--------------------|--1----------------|--0----------------|

--------------------||---------------------------|--------------------------
--------------------||---------------------------|--------------------------
-------------------*||*--2--------2--------2-----|--------------------------
--5----------------*||*--2--------2--------2-----|--3--------3--------3-----
--5-----------------||---0--0--0--0--0--0--0--0--|--3--------3--------3-----
--3-----------------||---------------------------|--1--1--1--1--1--1--1--1--

--------------------------|---------------------------||--------------------
--------------------------|---------------------------||--------------------
--------------------------|--------------------------*||*--5----------------
--2--------2--------2-----|--5--------5--------5-----*||*--5----------------
--2--------2--------2-----|--5--------5--------5------||---3------------5---
--0--0--0--0--0--0--0--0--|--3--3--3--3--3--3--3--3---||----------------3---

----------------|--------------------|-----------------||----------------|
----------------|--------------------|-----------------||----------------|
----------------|--------------------|----------------*||----------------|
----------------|--3-----------------|----------------*||----------------|
--6------8------|--3------------5----|--6------8-------||--6------8------|
--4------6------|--1------------3----|--4------6-------||--4------6------|

|----------------------------|-----------------------------|
|----------------------------|-----------------------------|
|*--7----7---7-7-7-----------|--3--3--3--3-3-3-3-----------|
|*--7----7---7-7-7-7--7--7-7-|--3--3--3--3-3-3-3-5--5--5-5-|
|---5----5---5-5-5-7--7--7-7-|--1--1--1--1-1-1-1-5--5--5-5-|
|------------------5--5--5-5-|-------------------3--3--3-3-|

                                                           3x
---------------------------|-------------------------------||
---------------------------|-------------------------------||
--7----7---7-7-7-----------|--2/3-3--3--3-3-3/5-5--5--5-5-*||
--7----7---7-7-7-7--7--7-7-|--2/3-3--3--3-3-3/5-5--5--5-5-*||
--5----5---5-5-5-7--7--7-7-|--0/1-1--1--1-1-1/3-3--3--3-3--||
-----------------5--5--5-5-|-------------------------------||

--------------------|------------------|------------------|-----------------
--------------------|------------------|------------------|-----------------
*--2----------------|------------------|------------------|-----------------
*--2----------------|------------------|------------------|-----------------
---0----------------|------------------|------------------|-----------------
--------------------|------------------|------------------|-----------------

------------------|-------------------|------------------|------------------
------------------|-------------------|------------------|------------------
------------------|--2----------------|------------------|--2---------------
------------------|--2----------------|------------------|--2---------------
------------------|--0----------------|------------------|--0---------------
------------------|-------------------|------------------|------------------

-------------------|--------------------|--------------------|
-------------------|--------------------|--------------------|
--2----------------|--2--------2--------|--2--------2--------|
--2----------------|--2--------2--------|--2--------2--------|
--0----------------|--0--------0--------|--0--------0--------|
-------------------|--------------------|--------------------|

----------------------|
----------------------|
--2----2----2----2----|
--2----2----2----2----|
--0----0----0----0----|
----------------------|

--12-12-12-12-12-12-12-12-12-12-12-12-12-12-12-12-12-12-12-12-12-12-12-12-|
--10-10-10-10-10-10-10-10-10-10-10-10-10-10-10-10-10-10-10-10-10-10-10-10-|
--10-10-10-10-10-10-10-10-10-10-10-10-10-10-10-10-10-10-10-10-10-10-10-10-|
--------------------------------------------------------------------------|
--------------------------------------------------------------------------|
--------------------------------------------------------------------------|

|----------------------------|-----------------------------|
|----------------------------|-----------------------------|
|*--7----7---7-7-7-----------|--3--3--3--3-3-3-3-----------|
|*--7----7---7-7-7-7--7--7-7-|--3--3--3--3-3-3-3-5--5--5-5-|
|---5----5---5-5-5-7--7--7-7-|--1--1--1--1-1-1-1-5--5--5-5-|
|------------------5--5--5-5-|-------------------3--3--3-3-|

                                                           3x
---------------------------|-------------------------------||
---------------------------|-------------------------------||
--7----7---7-7-7-----------|--2/3-3--3--3-3-3/5-5--5--5-5-*||
--7----7---7-7-7-7--7--7-7-|--2/3-3--3--3-3-3/5-5--5--5-5-*||
--5----5---5-5-5-7--7--7-7-|--0/1-1--1--1-1-1/3-3--3--3-3--||
-----------------5--5--5-5-|-------------------------------||

-------------------|------------------|------------------|------------------
-------------------|------------------|------------------|------------------
--2----------------|------------------|------------------|--------------x---
--0----------------|------------------|------------------|--------------x---
--0----------------|------------------|------------------|--------------x---
-------------------|------------------|------------------|------------------