A A

Edalet Sukurov - Dolya Badem Serabla dolu Tab


E--------10-10-9-7-------10-10-9-7-------10-10-9-7--9-9-7-5--7-7-5-3----
B-7-8-7------------7-8-7-----------7-8-7--------------------------------
G-----------------------------------------------------------------------
D-----------------------------------------------------------------------
A-----------------------------------------------------------------------
E-----------------------------------------------------------------------

E-------9-9-7-6--------9-9-7-6-------9-9-7-5--7-7-5-3--5-5-3-2----------
B-5-7-5----------5-7-5---------5-7-5------------------------------------
G-----------------------------------------------------------------------

Bir Yorum Yazın