A A

Christmas - We Wish You a Merry Christmas


|----------------------0-----------0-0-1-0-------------------|
|--1-1-3-1-0-------3-3---3-1-0-------------3-1---------3-0-1-|
|------------2-2-2-------------0-0-------------2-0-0-2-------|
|0-----------------------------------------------------------|
|------------------------------------------------------------|
|------------------------------------------------------------|

|----------------------0-----3---------------|
|--1-1-1-0-0-1-0-----3---3-1-----------3-0-1-|
|0---------------2-0-----------0-0-0-2-------|
|--------------------------------------------|
|--------------------------------------------|
|--------------------------------------------|

Basit Versiyon.
Mutlu yıllar..
Bilgiler
Sanatçı:
Christmas

Eser:
We Wish You a Merry Christmas

Biçim:
Tab

Tarih:
17.12.2017

Gönderen:
PrinceMuggle

Hit:
765

Bir Yorum Yazın