A A

Nickel Back - Where?


e:-----------------:-----------------:-----------------:-----------------:
b:-----------------:-----------------:-----------------:-----------------:
g:14----14--14br---:11----11--11br---:-7-----7---4br---:-2-----2---2-----:
d:-0-----0---0-----:-0-----0---0-----:-0-----0---0-----:-0-----0---0-----:
a:-----------------:-----------------:-----------------:-----------------:
d:-----------------:-----------------:-----------------:-----------------:

   RIFF B (- = 1/8 beat)
e:---------------------------------:---------------------------------:
b:---------------------3/4\3-------:---------------------3/4\3-------:
g:---------------------2/3\2-------:---------------------2/3\2-------:
d:-0-----x-x-x-0---x-x---------x-x-:-0-----x-x-x-0---x-x---------x-x-:
a:-0-----x-x-x-0---x-x---------x-x-:-0-----x-x-x-0---x-x---------x-x-:
d:-0-----x-x-x-0---x-x---------x-x-:-0-----x-x-x-0---x-x---------x-x-:

   RIFF Ca (- = 1/4 beat)
e:-----------------:-----------------:-----------------:-----------------:
b:-----------------:-----------------:-----------------:-----------------:
g:-----------------:-----------------:-5-5-xx5---5-----:-----------------:
d:-0-0-0-0---0-0-0-:-3-3-xx3---3-3-3-:-5-5-xx5---5---xx:-0-0-xx0---0-0-0-:
a:-0-0-0-0---0-0-0-:-3-3-xx3---3-3-3-:-3-3-xx3---3---xx:-0-0-xx0---0-0-0-:
d:-0-0-0-0---0-0-0-:-3-3-xx3---3-3-3-:---------------xx:-0-0-xx0---0-0-0-:

   RIFF Cb (- = 1/4 beat)
e:-----------------:-----------------:-----------------:-----------------:
b:-----------------:-----------------:-----------------:-----------------:
g:-----------------:-----------------:-0-0---0---0-----:-----------------:
d:-0-0-0-0---0-0-0-:-3-3-xx3---3-3-3-:-2-2---3---2---0-:-0-0-xx0---0-0-0-:
a:-0-0-0-0---0-0-0-:-3-3-xx3---3-3-3-:-3-3---3---3---0-:-0-0-xx0---0-0-0-:
d:-0-0-0-0---0-0-0-:-3-3-xx3---3-3-3-:-----------------:-0-0-xx0---0-0-0-:

End on a sharply hit D5 chord (0 0 0 - - -)
Bass plays D-F-C-A progression under "I wa-uhs wrong..."

Play RIFF Ca/Cb twice

   RIFF D (- = 1/4 beat)               (- = 1/8 beat, play twice)
e:-----------------:-----------------:---------------------------------:
b:-----------------:-----------------:---------3/4\3-----------3-------:
g:-----------------:-5-5-5-5-5-5-5-5-:---------2/3\2-----------2-------:
d:-3-3-3-3-3-3-3-3-:-5-5-5-5-5-5-5-5-:-0-----x-----------x-0---0-------:
a:-3-3-3-3-3-3-3-3-:-3-3-3-3-3-3-3-3-:-0-----x-----------x-0---0-------:
d:-3-3-3-3-3-3-3-3-:-----------------:-0-----x-----------x-0---0-------:

In the 2nd bar of RIFF E you can do the same thing as in the 3rd bar of
RIFF Cb if you'd like.

   RIFF E (- = 1/4 beat)
e:-----------------:-----------------:-----------------:-----------------:
b:-----------------:-----------------:-----------------:-----------------:
g:-----------------:-5-5-5-5-5-5-5-5-:-----------------:-----------------:
d:-3-3-3-3-3-3-3-3-:-5-5-5-5-5-5-5-5-:-5-5-5-5-7-7-7-7-:-8-8-8-8-8-8-8-8-:
a:-3-3-3-3-3-3-3-3-:-3-3-3-3-3-3-3-3-:-5-5-5-5-7-7-7-7-:-8-8-8-8-8-8-8-8-:
d:-3-3-3-3-3-3-3-3-:-----------------:-5-5-5-5-7-7-7-7-:-8-8-8-8-8-8-8-8-:

e:-----------------:-----------------:
b:-----------------:-----------------:
g:-----------------:-----------------:
d:-8-8-x-8---8-8-8-:10---------------:
a:-8-8-x-8---8-8-8-:10---------------:
d:-8-8-x-8---8-8-8-:10---------------:

   RIFF F (- = 1/8 beat)
e:---------------------------------:---------------------------------:
b:---------------------------------:---------------------------------:
g:---------------------------------:---------------------------------:
d:-0-----x-------------------------:-0-----------------------3---0---:
a:-0-----x-x-x-3h5---x-3h5---x-3h5-:-0---------x-3h5---x---x-3---0---:
d:-0-----x-x-x-3h5---x-3h5---x-3h5-:-0---------x-3h5---x---x-3---0---:
Bilgiler
Sanatçı:
Nickel Back

Eser:
Where?

Biçim:
Tab

Tarih:
08.12.2014

Gönderen:

Hit:
104

Bir Yorum Yazın