A A

Nickel Back - Pusher


Here's the main riff:
E|---------------------------------------------------|
B|---------------------------------------------------|
G|---------------------------------------------------|
D|-2-2/-4-4-2-4--2-2/-4-4-2--------------------------|
A|-2-2/-4-4-2-4--2-2/-4-4-2-2b3r---------------------|
e|-0-0/-2-2-0-2--0-0/-2-2-0--------------------------|

Here's the part during the verse:
E|-4--0--0--2----------------------------------------|
B|-4--0--0--2----------------------------------------|
G|-5--6--4--3----------------------------------------|
D|-6--7--2--4----------------------------------------|
A|-6--7--2--4----------------------------------------|
e|-4--5--0--2----------------------------------------|

And here's the bridge or 'panic' part:
E|-----------------------------------------------------|
B|-----------------------------------------------------|
G|-----------------------------------------------------|
D|-2-2-2--2-2--2-2---2-2-2--2-2--2-2---5-5-5--5-5--5-5-|
A|-2-2-2--2-2--2-2---2-2-2--2-2--2-2---5-5-5--5-5--5-5-|
e|-0-0-0--0-0--0-0---0-0-0--0-0--0-0---3-3-3--3-3--3-3-|

E|---------------------------------------------------|
B|---------------------------------------------------|
G|-------------------4-4-4---------------------------|
D|-9-9-9--9-9--9-9---4-4-4---------------------------|
A|-9-9-9--9-9--9-9---2-2-2-2b3r----------------------|
e|-7-7-7--7-7--7-7-----------------------------------|

Lyrics
------

And some say, 'Why did father do something do wrong?'
So I asked him, and he convents, leave me for more.
Now it's over, and I see him, don't come back anymore.
And I say:

I need
I don't ask much anymore, yeah.
I've heard there's something.

Through this stone into the water, direct for this world.
Burn them babies, just for holding the candle too close.
Take it all back, search for justice, don't live there anymore.
And I say:

I need
I don't ask much anymore, yeah.
I've heard there's something.

And why, do you see me in this way?
I gave him, these till the end.
I bothered, not to believe in this way.
I begged him, just to see in this way.

I need
I don't ask much anymore, yeah.
I've heard there's something.
Bilgiler
Sanatçı:
Nickel Back

Eser:
Pusher

Biçim:
Tab

Tarih:
08.12.2014

Gönderen:

Hit:
116

Bir Yorum Yazın