A A

Mavi Işıklar - Helvacı Helva


---------------------------------------------
-4-4-5-7-7-8-7-8-7---8-10-8--7-8-7--5-5-7-5-4   2X
---------------------------------------------
---------------------------------------------
---------------------------------------------
---------------------------------------------

---------------------------------------------
-7-8-7-5-7-5-4-4-5-4------4-5-4---------7----
---------------------5-4--------5-4-5-4------
---------------------------------------------
---------------------------------------------
---------------------------------------------

---------------------------------------------
-7-8-7-5-7-5-4-4-5-4------4-5-4--------------
---------------------5-4--------5-4-5-4-4----
---------------------------------------------
---------------------------------------------
---------------------------------------------
Bilgiler
Sanatçı:
Mavi Işıklar

Eser:
Helvacı Helva

Biçim:
Tab

Tarih:
04.12.2014

Gönderen:

Hit:
162

Bir Yorum Yazın