A A

Mauro Giuliani - Allegro


4/4
   Am                                Dm
e|---------0-----------------------|---------1-----------------------|
H|-----1-------1-------------------|-----3-------3-------------------|
G|---2---2---2---2---2---2---2---2-|---2---2---2---2---2---2---2---2-|
D|---------------------------------|-0---------------0---2---3---0---|
A|-0---------------0---2---3---0---|---------------------------------|
E|---------------------------------|---------------------------------|
  mf               cresc._________   decresc._______ cresc._________

  E                                 Am/C             E7
e|---------0-----------------------|---------0---------------0-------|
H|-----0-------0-------------------|-----1-------1-------3-------3---|
G|---1---1---1---1---1---1---1---1-|---2---2---2---2---1---1---1---1-|
D|-2---------------2---3---2---0---|---------------------------------|
A|---------------------------------|-3---------------2---------------|
E|---------------------------------|---------------------------------|
                   cresc._________   decresc.___________ p

  Am                                Dm
e|---------0-----------------------|---------1-----------------------|
H|-----1-------1-------------------|-----3-------3-------------------|
G|---2---2---2---2---2---2---2---2-|---2---2---2---2---2---2---2---2-|
D|---------------------------------|-0---------------0---2---3---0---|
A|-0---------------0---2---3---0---|---------------------------------|
E|---------------------------------|---------------------------------|

  Am                                Esus4            E
e|---------0---------------0-------|---------1---------------0-------|
H|-----1-------1-------1-------1---|-----0-------0-------0-------0---|
G|---2---2---2---2---2---2---2---2-|---2---2---2---2---1---1---1---1-|
D|-2-------------------------------|-0-------------------------------|
A|---------------------------------|---------------------------------|
E|-----------------0---------------|-----------------0---------------|
   cresc.___________________________________________ decresc._______

   Am      E7      Am      Em        Am      E7      Am      Em
e|-------0-------0-------0-------0-|-------0-------0-------0-------0-|
H|-----1-------3-------1-------0---|-----1-------3-------1-------0---|
G|---2-------1-------2-------0-----|---2-------1-------2-------0-----|
D|---------------------------------|---------------------------------|
A|-0---------------0---------------|-0---------------0---------------|
E|---------0---------------0-------|---------0---------------0-------|
   cresc.___________________________________________________________

   Am
e|---------------------------------|
H|---------------------------------|
G|-2-------------------------------|
D|---------------------------------|
A|-0-------------------------------|
E|---------------------------------|
Bilgiler
Sanatçı:
Mauro Giuliani

Eser:
Allegro

Biçim:
Tab

Tarih:
04.12.2014

Gönderen:

Hit:
137

Bir Yorum Yazın