A A

Linkin Park - What İ've Done


İntro
|--------------------------------------- ----------------------------
|--------------------------------------- -----------------------------------
|--------------------------------------- -----------------------------------
|--------------------------------------- -----------------------------------
|-13-13-13-13-13-13-12-12-13-13-13-13-13 -13-15-15--
|--------------------------------------- -----------------------------------

|--------------------------------------- -----------------------------------
|--------------------------------------- -----------------------------------
|--------------------------------------- -----------------------------------
|--------------------------------------- -----------------------------------
|--12-12-12-12-12-12-12-12-10-10-10-10-1 0-10-12-12-
|--------------------------------------- -----------------------------------

SOLO: (part 1)
--------------------------------------
-----------------------------11~----
-10----10----10----12-----------
-----12----12----12----12-------
--------------------------------------
--------------------------------------

(part2)
---------------------------------------- -------------------------------
---------------------------------------- 10---- -----------------------
----10----10----10----10----12---------- 12----10----10------
12----12----12----12----12----12----12- ---12----12----12-
---------------------------------------- --------------------------------
---------------------------------------- --------------------------------
(part1) tekrar çalıyoruz

(part3)
---------------------------------------- ---------------------------------
---------------------------------------- -10-----------------------------
----10----10----10----10----12---------- --12----10----12-----
-12----12----12----12----12----12----12- ---12----12----12-
---------------------------------------- ---------------------------------
---------------------------------------- ---------------------------------
Bilgiler
Sanatçı:
Linkin Park

Eser:
What İ've Done

Biçim:
Tab

Tarih:
03.12.2014

Gönderen:

Hit:
176

Bir Yorum Yazın