A A

Linkin Park - New Divide


New  divide
Intro 2 x
E|---------------------------------------------|
B|---------------------------------------------|
G|---------------------------------------------|
D|6 -3- - - - -10 - 6- - -13 –10- - - - -8 -3--|
A|---------------------------------------------|
E|---------------------------------------------|

verso no guitar

        Fm        Gm        D#m   Am
E|-------------------------------------------------|
B|-------------------------------------------------|
G|--------------------------------8----------------|
D|----3-------------- 6-----------8----------8-----|
A|----3-------------- 6-----------6----------8-----|
E|----1-------------- 4----------------------6-----|
Bilgiler
Sanatçı:
Linkin Park

Eser:
New Divide

Biçim:
Tab

Tarih:
03.12.2014

Gönderen:

Hit:
146

Bir Yorum Yazın