A A

Linkin Park - In The End


Piano riff/ Intro:
E-------------------
B-------------------
G----3-3------------    4TH time play only firt 5 notes
D--1-----4-3-3-3-3-4
A-------------------
E-------------------

Verse:
E--18*--13--18--14--13--11-
B--------------------------
G--------------------------   Play the first note only the first time.
D--------------------------    (it's the hormonic sound).Piano fades
A--------------------------    in after 2 times.
E--------------------------

Chorus: 4 chords is all
E-------------
B-------------
G--3--6-------     Play 2 times. The verse part is played over this
D--1--4--6--4-      like a lead but with what sounds like overdrive.
A--1--4--4--2-
E--------4--2-
Bilgiler
Sanatçı:
Linkin Park

Eser:
In The End

Biçim:
Tab

Tarih:
03.12.2014

Gönderen:

Hit:
104

Bir Yorum Yazın