A A

Linkin Park - Given Up


Intro

E|-------------------------------------------------------------| Guitar 2
B|-------------------------------------------------------------| enters on
G|-------------------------------------------------------3-----| second
D|-2-xx-xx-xxx-xx32-xx-xx-xxx-xx32-xx-xx-xxx-xx-xx-xx--xx3-2x0-| time
A|-2-xx-xx-xxx-xx32-xx-xx-xxx-xx32-xx-xx-xxx-xx-xx-xx--xx1-2x0-|
D|-2-xx-xx-xxx-xx32-xx-xx-xxx-xx32-xx-xx-xxx-xx-xx-xx--xx--2x0-| x2

Verse 1

(Optional Bass Part)
E|--------------------------------------------------------------|
B|--------------------------------------------------------------|
G|--------------------------------------------------------------|
D|--------------------------------------------------------------|
A|--------------------------------------------------------2-----|x2
D|-2-22-22-222-2232-22-22-222-2230-00-00-0000-002-22-22-22--220-|

E|--------------------|
B|--------------------|
G|--------------------|
D|--------------------|
A|-2-2-2-2-2-2-2-2-2--|
D|-2-2-2-2-2-2-2-2-2--|

Chorus

E|----------------------------------|
B|----------------------------------|
G|----------------------------------|
D|-22222222555555550000000077777777-|
A|-22222222555555550000000077777777-|x3
D|-22222222555555550000000077777777-|

E|----------------------------------|
B|----------------------------------|
G|----------------------------------|
D|-22222222555555550000000000000000-|
A|-22222222555555550000000000000000-|
D|-22222222555555550000000000000000-|

E|----------------|                  |---|
B|----------------|    this is the   |---|
G|-----------3----|   FINAL note of  |---|
D|-2-22-22-xx3-2x0|     the song --> |-2-|
A|-2-22-22-xx1-2x0|                  |-2-|
D|-2-22-22-xx--2x0|                  |-2-|

Verse 2

Play Verse 1

Chorus

Play Chorus

Bridge

E|------------------||------------------------------------|
B|---------------2~-||---------------2~-------------------|
G|---------------2~-||---------------2~-------------------|
D|---------------2~-||-012043065012022~--0120430650120432-|
A|------------------||-01204306501202----0120430650120432-|x2
D|-01204306501202---||-01204306501202----0120430650120432-|

E|-------------|
B|-------------|
G|-------------|
D|-07012043210-|
A|-07012043210-|
D|-07012043210-|

Guitar 1
E|--------------------------------------------------------------|
B|--------------------------------------------------------------|
G|--------------------------------------------------------3-----|
D|-2-xx-xx-xxx-xx32-xx-xx-xxx-xx32-xx-xx-xxx-xx32-xx-xx-xx3-2x0-|
A|-2-xx-xx-xxx-xx32-xx-xx-xxx-xx32-xx-xx-xxx-xx32-xx-xx-xx1-2x0-|x2
D|-2-xx-xx-xxx-xx32-xx-xx-xxx-xx32-xx-xx-xxx-xx32-xx-xx-xx--2x0-|

Guitar 2 - (Optional bass part)- 2nd time only
E|-----------------------------------------------|
B|-----------------------------------------------|
G|-----------------------------------------------|
D|-----------------------------------------------|
A|-----------------------------------------------|
D|-2-22-22-222-2232-22-22-222-2232-22-22-222-2232|

Chorus

Play Chorus AND final note of song.
Bilgiler
Sanatçı:
Linkin Park

Eser:
Given Up

Biçim:
Tab

Tarih:
03.12.2014

Gönderen:

Hit:
124

Bir Yorum Yazın