A A

Linkin Park - Faint


1st gitar (violin)
-22~~/24b~~~~~15/17~~~~~15/10--15/10--15/10--15/10
--------------------------------------------------
--------------------------------------------------
--------------------------------------------------
--------------------------------------------------
--------------------------------------------------

gitar 1
-24b~~~~~15/17~~~~~15/10--15/10--15/10------------
--------------------------------------------------
--------------------------------------------------
--------------------------------------------------
--------------------------------------------------
--------------------------------------------------

gitar 2
--------------------------------------------------
--------------------------------------------------
---------------------------------------7-7-7-7----
---------------------------------------x-x-x-x----
-------------------0~~~~~~~~~~~~~~~~~--5-5-5-5----
-------------------0~~~~~~~~~~~~~~~~~-------------
                   vol. swell w/dist.

Giriş ve Nakarat
gitar 1
----------------------------------------------------------------
----------------------------------------------------------------
-----14\\12-12~~------14\\10-10-------14\\12-12------14\\10-10--
---------------------------------------------------------------- 2x
-----12\\10-10~~------12\\-8--8-------12\\10-10------12\\-8--8--
----------------------------------------------------------------

gitar 2
-------------------------------------------------------------
-------------------------------------------------------------
-------------------------------------------------------------
0-0-0-0-0-0-0-0-3-3-3-3-3-3-3-3-8-8-8-8-8-8-8-8-5-5-5-7~~5-3-  2x
0-0-0-0-0-0-0-0-3-3-3-3-3-3-3-3-8-8-8-8-8-8-8-8-5-5-5-7~~5-3-
0-0-0-0-0-0-0-0-3-3-3-3-3-3-3-3-8-8-8-8-8-8-8-8-5-5-5-7~~5-3-

gitar 1
-24b~~~~~15/17~~~~~15/10--15/10--15/10--15/10----
-------------------------------------------------
-------------------------------------------------
-------------------------------------------------  3x
-------------------------------------------------
-------------------------------------------------

gitar 2
-------------------------------------------------
-------------------------------------------------
-------------------------------------------------
-0-----------------------------------------------    2x
-0-----------------------------------------------
-0-----------------------------------------------

gitar 2
--------------------------------------------------
--------------------------------------------------
-----------------------------------------7-5-5-5--
-0-----------------8-------------10------x-x-x-x--
-0-----------------8-------------10------5-5-5-5--
-0-----------------8-------------10---------------

Ara
gitar 1&2
-------------------------------    4x
-------------------------------
-------------------------------
0-3-7-0-3-1---00-0-3-7-0-3-2---
0-3-7-0-3-1---00-0-3-7-0-3-2---
0-3-7-0-3-1---00-0-3-7-0-3-2---

Nakarat 4x

Şarkının sonu şöyle

-------------------------------
-------------------------------
---10--10-10-10-8-8------------
-------------------------------
----8---8--8--8-6-6------------
-------------------------------
Bilgiler
Sanatçı:
Linkin Park

Eser:
Faint

Biçim:
Tab

Tarih:
03.12.2014

Gönderen:

Hit:
132

Bir Yorum Yazın