A A

Linkin Park - Castle Of Glass


Intro:

E--------------------------|--------------------------
B--------------------------|--------------------------
G--------------------------|--------------------------
D--0-0-2-3-2-0-----0-----2-|--0-0-2-3-2-0-----0-----2-
A--------------3-3---0-0---|--------------3-3---0-0---
E--------------------------|--------------------------

E--------------------------|-------------------------------------
B--------------------------|-------------------------------------
G--------------------------|-------------------------------------
D--0-0-2-3-2-0-----0-----2-|--0-0-2-3-2-0-----0----------------0-
A--------------3-3---0-0---|--------------3-3---0-0--0-1--3--0---
E--------------------------|-------------------------------------

Nakarat:

E-------------------------------|------------------------------------
B-------------------------------|------------------------------------
G------2-3--2-0------2-0----0-2-|------2-3--2-0--------2-0-----------
D--0-3----------3--3------3-----|--0-3----------3--0-3------0-3-2-0--
A-------------------------------|------------------------------------
E-------------------------------|------------------------------------
Bilgiler
Sanatçı:
Linkin Park

Eser:
Castle Of Glass

Biçim:
Tab

Tarih:
03.12.2014

Gönderen:

Hit:
325

Bir Yorum Yazın