A A

Linkin Park - Breaking The Habit


intro
e|------6---4---3--|
b|---6-------------|
g|-----------------|
d|-----------------|
a|-----------------|
e|-----------------|

verse,w\intro (riff a)
e|---------------------------------|
b|---------------------------------|
g|--5--6--8--5-5--------5--6--5-5--|
d|---------------------------------|
a|---------------------------------|
e|---------------------------------|
pre-chorus(riff a w\ intro)

chorus (riff b)
e|---------------------------------|
b|---------4---4-6-------4---4-6---|
g|---3--------------3--3-----------|
d|---------------------------------|
a|---------------------------------|
e|---------------------------------|
chorus (riff c)
^also these chords are hit once,i put part of the words in so
u know wen to hit them^
e|-8------------8------------3---------8--------3--------|
b|-9------------9------------4---------9--------4--------|
g|-10-----------10-----------5---------10-------5--------|
d|-10-----------10-----------5---------10-------5--------|
a|-8------------8------------3---------8--------3--------|
e|-x------------x------------x---------x--------x--------|
I don't know...fighting.....or why....i don't..say what
I don't know...got this ....i know its not alright

last part of chorus here:
e|-8------------x------|
b|-9------------7------|
g|-10-----------7------|
d|-10-----------7------|
a|-8------------6------|
e|-x------------x------|
....breaking.....habit
....breaking.....habit tonight

2nd verse w/riff a

then chorus

bridge(riff b)
e|-8---------------x------x-----------x------8--------------x---|
b|-9---------------x------x-----------x------9--------------x---|
g|-10--------------x------x-----------x------10-------------x---|
d|-10--------------5------6-----------8------10-------------5---|
a|-8---------------5------6-----------8------8--------------5---|
e|-x---------------3------4-----------6------x--------------3---|
ill paint....walls......'cause..fault.....ill never..again

e|-x-----------x--|
b|-x-----------x--|
g|-x-----------x--|
d|-6-----------8--|
a|-6-----------8--|
e|-4-----------6--|
and this..ends

outro...........|repeated 11x...|
e|--8--6--4--3-|------6--4--3--|
b|-------------|--6------------|
g|-------------|---------------|
d|-------------|---------------|
a|-------------|---------------|
e|-------------|---------------|
Bilgiler
Sanatçı:
Linkin Park

Eser:
Breaking The Habit

Biçim:
Tab

Tarih:
03.12.2014

Gönderen:

Hit:
108

Bir Yorum Yazın