A A

Linkin Park - A Place for My Head


Dropped D and tune down 1/2 step
m = palm mute

Verse 1                                   Fill
eb--------------------------------------|------------------
Bb--------------------------------------|------------------
Gb-------4-4-4-5-4-2--------------------|------------------
Db--2-2--------------5-5--3-3-3--3-3-5--|--5/--------------
Ab--------------------------------------|------------------
Db--------------------------------------|------------------

Chorus
eb---------------------------------------------------------
Bb---------------------------------------------------------
Gb---------------------------------------------------------
Db--2-2---9-10-9--5-5--3-3-3-5-----------------------------
Ab--2-2---9-10-9--5-5--3-3-3-5-----------------------------
Db--2-2---9-10-9--5-5--3-3-3-5-----------------------------

Verse 2
eb---------------------------------------------------------
Bb---------------------------------------------------------
Gb---------------------------------------------------------
Db--2-2----12----2----12---12-12-12-12-12------------------
Ab--2-2----10----2----10---10-10-10-10-10------------------
Db--2-2----10----2----10---10-10-10-10-10------------------

Bridge
eb---------------------------------------------------------
Bb---------------------------------------------------------
Gb---------------------------------------------------------
Db--2m-2m--2m-2m-2m-2m--2m-2m-2m--2m-2m-2m-2m--12----------
Ab--2m-2m--2m-2m-2m-2m--2m-2m-2m--2m-2m-2m-2m--10----------
Db--2m-2m--2m-2m-2m-2m--2m-2m-2m--2m-2m-2m-2m--10----------

Outro
eb---------------------------------------------------------
Bb---------------------------------------------------------
Gb--4-4--4-4-4-4--4-4-4--4-4-4----12\----------------------
Db--2-2--2-2-2-2--2-2-2--2-2-2-0--12\----------------------
Ab--2-2--2-2-2-2--2-2-2--2-2-2-0--10\----------------------
Db--2-2--2-2-2-2--2-2-2--2-2-2-0--10\----------------------

Verse 1 (palm muted)
Verse 1
Chorus
Verse 1
Verse 2
Chorus
Break
Chorus
Bridge
Outro
Bilgiler
Sanatçı:
Linkin Park

Eser:
A Place for My Head

Biçim:
Tab

Tarih:
03.12.2014

Gönderen:

Hit:
131

Bir Yorum Yazın