A A

Hans Zimmer - Pirates Of The Caribbean-He Is A Pirate


1. Kısım
E|------------------------------------|
B|-------------5-6-6-6-8-5-5----------|
G|-----5-7-7-7---------------7-5-5-7--|
D|---7--------------------------------|
A|------------------------------------|
E|------------------------------------|

E|--------------------------------|
B|------------5-6-6-6-8-5-5-------|
G|----5-7-7-7---------------7-5-7-|
D|--7-----------------------------|
A|--------------------------------|
E|--------------------------------|

E|--------------------5-6-6-5---5---|------------5---|-----------------|
B|------------6-8-8-8---------8-----|----5-6-6-8-----|----6-5-5--5-3-5-|
G|----5-7-7-7---------------------7-|--7-----------7-|--7--------------|
D|--7-------------------------------|----------------|-----------------|
A|----------------------------------|----------------|-----------------|
E|----------------------------------|----------------|-----------------|

2. Kısım
E|------------------------------------|
B|-------------5-6-6-6-8-5-5----------|
G|----5-7-7-7---------------7-5-5-7--|
D|---7--------------------------------|
A|------------------------------------|
E|------------------------------------|

E|--------------------------------|
B|------------5-6-6-6-8-5-5-------|
G|----5-7-7-7---------------7-5-7-|
D|--7-----------------------------|
A|--------------------------------|
E|--------------------------------|

E|--------------------5-6-6-5---5---|------------5---|
B|------------6-8-8-8---------8-----|----5-6-6-8-----|
G|----5-7-7-7---------------------7-|--7-----------7-|
D|--7-------------------------------|----------------|
A|----------------------------------|----------------|
E|----------------------------------|----------------|

E|-----------------------------5-------6---------------|
B|----6-5-5---------4/5--6-6-8---6-------6-------------|
G|--7-------7-5-7-7----------------7-------7---------7-|
D|-----------------------------------7-------8-7-7-8---|
A|-----------------------------------------------------|
E|-----------------------------------------------------|

3. kısım
E|-----------------|-------------|-----------------|---------|
B|--10-10-10-11-10-|--8-8-8-8-10-|--10-10-10-11-10-|--8-6-5-3|
G|--10-10-10-10-10-|--9-9-9-9-9--|--10-10-10-10-10-|--9-7----|
D|-----------------|-------------|-----------------|---------|
A|-----------------|-------------|-----------------|---------|
E|-----------------|-------------|-----------------|---------|

E|-------------------------------|-------------------------------|
B|---------8-10-8---------8-10-8-|-----8-10-8--------------------|
G|--7-9-10--------10-9-10--------|--10--------10-9-10-9-7-9----7-|
D|-------------------------------|--------------------------10---|
A|-------------------------------|-------------------------------|
E|-------------------------------|-------------------------------|

E|-------------------------------|-------------------------------|
B|--------------8----8-10-8------|---------8-10-11---8-----------|
G|--7-9-10-9-10---10--------10-7-|--7-9-10---------7---10-9----7-|
D|-------------------------------|--------------------------10---|
A|-------------------------------|-------------------------------|
E|-------------------------------|-------------------------------|

E|-----------------------------------|
B|--10-11-10-10-10-10--8-8-6-5-6-5-3-|
G|--10-10-10-10-10-10----------------|  X2
D|-----------------------------------|
A|-----------------------------------|
E|-----------------------------------|

E|------------|------------|---------------8------|--------------|
B|---------10-|---------11-|---------10-10---10-8-|--8-6-5-6-5-3-|
G|--7-9-10----|--7-9-10----|--7-9-10--------------|--------------|
D|------------|------------|----------------------|--------------|  X2
A|------------|------------|----------------------|--------------|
E|------------|------------|----------------------|--------------|
Bilgiler
Sanatçı:
Hans Zimmer

Eser:
Pirates Of The Caribbean-He Is A Pirate

Biçim:
Tab

Tarih:
25.11.2014

Gönderen:

Hit:
110

Bir Yorum Yazın