A A

Hans Zimmer - He's A Pirate


Introduction - Palm mute the A's except the chord
E|--------------|--------------|--------------|------|
B|--------------|--------------|--------------|-7----|
G|--------------|--------------|--------------|-7----|
D|--------------|--------------|--------------|------|
A|-5-55-55-5555-|-5-55-55-5555-|-5-55-55-5555-|-5----|
E|--------------|--------------|--------------|------|

Main Riff - Play Twice
E|---------|---------|---------|---------|
B|---------|---5-6-6-|-6-8-5-5-|---------|
G|---5-7-7-|-7-------|---------|-7-5-5-7-|
D|-7-------|---------|---------|---------|
A|---------|---------|---------|---------|
E|---------|---------|---------|---------|

E|---------|---------|---------|---------|
B|---------|---5-6-6-|-6-8-5-5-|---------|
G|---5-7-7-|-7-------|---------|--7-5-7--|
D|-7-------|---------|---------|---------|
A|---------|---------|---------|---------|
E|---------|---------|---------|---------|

E|---------|---------|---5-6-6-|-5---5---|
B|---------|---6-8-8-|-8-------|---8-----|
G|---5-7-7-|-7-------|---------|-------7-|
D|-7-------|---------|---------|---------|
A|---------|---------|---------|---------|
E|---------|---------|---------|---------|

E|---------|----5----|---------|---------|
B|---5-6-6-|--8------|---6-5-5-|--6---5--|
G|-7-------|------7--|-7-------|----7----|
D|---------|---------|---------|---------|
A|---------|---------|---------|---------|
E|---------|---------|---------|---------|

Interlude
E|------------|-5-------|-6-------|--------|
B|--3-3-5-6-8-|---6-3---|---6-3---|--------|
G|------------|-------2-|-------3-|--2-3-2-|
D|------------|---------|---------|--------|
A|------------|---------|---------|--------|
E|------------|---------|---------|--------|

E|-5-5-5-6-5-|------------|-5-5-5-6-5-|---------|
B|-----------|-8-8-8-8-10-|-----------|-6-6-5-3-|
G|-----------|------------|-----------|---------|
D|-----------|------------|-----------|---------|
A|-----------|------------|-----------|---------|
E|-----------|------------|-----------|---------|

Solo Part
E|-------|---5---|-------|---5---|---------|--------|--------|--------|
B|---5-6-|-8---8-|-6-5-6-|-8---8-|----8-10-|-10-8---|--------|--------|
G|-7-----|-------|-------|-------|-10------|------9-|-10-9-7-|-9----7-|
D|-------|-------|-------|-------|---------|--------|--------|---10---|
A|-------|-------|-------|-------|---------|--------|--------|--------|
E|-------|-------|-------|-------|---------|--------|--------|--------|

E|-------|-------|-----5-|-------|---------|----5-6-|--------|--------|
B|---5-6-|-5-6-8-|-6-8---|-8-6---|----5-6--|--8-----|---8-6--|-8-5-3--|
G|-7-----|-------|-------|-----7-|--7------|--------|-7------|--------|
D|-------|-------|-------|-------|---------|--------|--------|--------|
A|-------|-------|-------|-------|---------|--------|--------|--------|
E|-------|-------|-------|-------|---------|--------|--------|--------|

Ending Part One - Play Twice
E|-----5-6-5-5-5-5-3-|-3-----------|
B|-5-----------------|---6-5-6-5-3-|
G|---5---------------|-------------|
D|-------------------|-------------|
A|-------------------|-------------|
E|-------------------|-------------|

Ending Part Two - Play Twice, let final note ring
E|-----5-6-5-5-8-5-3-|-3-----------|
B|-------------------|---6-5-6-5-3-|
G|-------------------|-------------|
D|-------------------|-------------|
A|-------------------|-------------|
E|-------------------|-------------|
Bilgiler
Sanatçı:
Hans Zimmer

Eser:
He's A Pirate

Biçim:
Tab

Tarih:
25.11.2014

Gönderen:

Hit:
254

Bir Yorum Yazın