A A

Hans Zimmer - Davey Jones


e|------------------------------------------------------------------------|
B|----------------1--------------1--3---------------1---------------------|
G|----------0--2--0--3--2--2--3--0--0--2--0--2---3--0--2-----0--3--2------|
D|-0--2--3--0--0-----0--0--0--0--------0--0--0---0-----0--3--0--0--0--3---|
A|-0--0--0------------------------------------------------0-----------0---|
E|------------------------------------------------------------------------|

e|------------------------------------------------------------------------|
B|------------------------------------------------------------------------|
G|------------------------------------------------------------------------|
D|-0--2--------2--0--2--0-------------------------------------------------|
A|-0--0--3--0--0--0--0--0-------------------------------------------------|
E|-------0--0-------------------------------------------------------------|
Bilgiler
Sanatçı:
Hans Zimmer

Eser:
Davey Jones

Biçim:
Tab

Tarih:
25.11.2014

Gönderen:

Hit:
125

Bir Yorum Yazın