A A

Gökçe - Tuttu Fırlattı


1.SOLO

E   ------------------------I------------------------
N(B)-8-7-----7-8-7----------I------------------------
G   -------9-----------9-7--I----9-7----7-9-7--------
D   ------------------------I--------10---------10-9-
A   ------------------------I------------------------
E   ------------------------I------------------------

-------------------------------------------
-----8-12-12-10-8-7------------------------
--------------------9-------5-9-9-7-5-4----
-------------------------------------------

2. SOLO

E    --------------------------------I--------------------------------I
NK(B)-7-8-12-10-8-7-8-----10---------I--------7-8--------------7------I
G    --------------------------------I-----9------------9-7-9---------I
D    --------------------------------I--------------------------------I
A    --------------------------------I--------------------------------I
E    -----------------------------------------------I-----------------I

I-------------I-----------------------7-----7--8----7---
I---7-8-7-----I-7-8-10-8-7-----8---10--------10---------
I-9-------9---I------------------------------------------
I-------------I------------------------------------------
I-------------I------------------------------------------
I-------------I------------------------------------------
Bilgiler
Sanatçı:
Gökçe

Eser:
Tuttu Fırlattı

Biçim:
Tab

Tarih:
20.11.2014

Gönderen:

Hit:
161

Bir Yorum Yazın