A A

Gökçe - Tuttu Fırlattı Kalbimi


E|------------------------------------------------
B|--8-7-5-7-8--7-5-------5-4---5-4----------------
G|-----------------7---------5-----5-4------------
D|------------------------------------------------
A|------------------------------------------------
E|------------------------------------------------
 
E|--------7-7-5-----------------------------------
B|--7h8---------8-7-5--5-5-4----------------------
G|--------------------5-----5-4-------------------
D|------------------------------------------------
A|------------------------------------------------
E|------------------------------------------------
 
Em                  C
Aşkı çabuk söndü. Beni pabucunun ucuyla
Eb5                Em
Eze eze geçti ve gitti
                 C         Eb5
Geri sardığı hep aynı sahneyi oynadık
Em                 C
Durduk keyfince arada bir canı cananı
Eb5               Em
Ama hiç kimsesi oldum çok yoruldum
   C            Eb5                  Em             C    Em
Bi sağa bi sola Yalpalandım! Durdum! Onu görünce teslim oldum..
 
     Em         Em           Em         Em
Bir kere! İki Kere! Üç Kere! Dört Kere! Beş Kere!!
 
Em             D       C           B7
Tuttu, Fırlattı kalbimi ezdi üstünü çiğnedi
G       Am         C       B7
Zamanla geçer dedi. Zamanla zamanla!
Em             D       C           B7
Tuttu, Fırlattı kalbimi ezdi üstünü çiğnedi
G       Am         C       B7
Zamanla geçer dedi. Zamanla zamanla!
Bilgiler
Sanatçı:
Gökçe

Eser:
Tuttu Fırlattı Kalbimi

Biçim:
Akor

Tarih:
20.11.2014

Gönderen:

Hit:
1392

Bir Yorum Yazın