A A

Gökçe - Oh Olsun


^ bend
/ slide
h hammer on
p pull of

e-------------------------------------------------------
b-------------------------------------------------------
g--/5-4-5-4-5--4-5-^7-7-5-4-4------/4-2-4-----4-4-2-4---
D-----------------------------------------2-2-----------
A-------------------------------------------------------
E-------------------------------------------------------

e-------------------------------------------------------
b-------------------------------------------------------
g--2/4-^5-5-4-2-2--2-0-2-0-2-2/4-^4-4-2-0-0-------------
D-------------------------------------------------------
A-------------------------------------------------------
E-------------------------------------------------------

e-------------------------------------------------------
b-------------------------3-5---------------------------
g---------0-2--2/4-5-5--5-------------------------------
D--/3-2-3-----------------------------------------------
A-------------------------------------------------------
E-------------------------------------------------------
Bilgiler
Sanatçı:
Gökçe

Eser:
Oh Olsun

Biçim:
Tab

Tarih:
20.11.2014

Gönderen:

Hit:
198

Bir Yorum Yazın