A A

Feridun Düzağaç - Beni Unutma


E|-------1-------4-|-------6----------|
B|-------2-------6-|-------8----------|
G|-----3-------6---|-----8-------6----|
D|---3-------6-----|---8-------6------|
A|-1-------4-------|-6-------4-----43-|
E|-----------------|------------------|
|
|           ^^^^^^^^^^^^         ^^^^^
E|-----6-8-4-------|-----4-6-31-------|
B|-----------------|------------4-----|
G|-----------------|------------------|
D|-----------------|------------------|
A|-----------------|------------------|
E|-----------------|------------------|

E|-------1---------|-----3-------3---|
B|-------2-----8---|-----5-------5---|
G|-----3---------8-|-------3-------3-|
D|---3-------6-----|---5-------5-----|
A|-1-------4-------|-3-------3-------|
E|-----------------|-----------------|
|
|  ^^^^                  ^^^^^^^^^^^^
E|-----6-8-4---3-1-|-01-3------------|
B|-----------------|-----------------|
G|-----------------|-----------------|
D|-----------------|-----------------|
A|-----------------|-----------------|
E|-----------------|-----------------|
Bilgiler

Eser:
Beni Unutma

Biçim:
Tab

Tarih:
18.11.2014

Gönderen:

Hit:
241

Bir Yorum Yazın